Death.FM
RIP
Subscribe to become a RIP member of Death.FM!

· Request More Often
· Unshared Requests
· Request Countdown Timer
· Request Ready Indicator
· Your Request History
· Access To The RIP Forum
· Add More Favorites

:: Click Here To Upgrade ::

:: Give RIP as a Gift ::

Listen Live!

Follow Us

Search

 

Donation Meter


Make donations with PayPal!
Monthly Goal:
$500.00

Need:
$380.00

10 Donations:
$120.00

StreamingSoundtracks.com (Oct-16) martino $13.98
StreamingSoundtracks.com (Oct-14) Cindylover1969 $20.00
StreamingSoundtracks.com (Oct-13) Ankh $15.00
StreamingSoundtracks.com (Oct-12) Anonymous $10.00
StreamingSoundtracks.com (Oct-8) Anonymous $0.04
StreamingSoundtracks.com (Oct-7) Anonymous $0.98
StreamingSoundtracks.com (Oct-7) molossus $17.00
StreamingSoundtracks.com (Oct-6) Caliburn $15.00
StreamingSoundtracks.com (Oct-4) klingon50 $10.00
StreamingSoundtracks.com (Oct-2) ZeframCochrane $18.00

 


Last Month's Donors
StreamingSoundtracks.com (Sep-30) Cindylover1969 $10.00
StreamingSoundtracks.com (Sep-29) Anonymous $0.81
Death.FM (Sep-29) pesadelo $50.00
StreamingSoundtracks.com (Sep-28) epsi42 $15.00
Death.FM (Sep-27) htmm $13.37
StreamingSoundtracks.com (Sep-25) arucanAI $1.00




Death.FM Store



:: Death.FM Store ::



Tabs

 
Post new topic   Reply to topic    Death.FM Forum Index -> Musicians
View previous topic :: View next topic 
Author Message
Netherlands bowelrupture
Ensign
Ensign



Joined: Dec 06, 2007
Member#: 4294
Posts: 42
Location: Stadskanaal

bowelrupture is offline View user's profile Send private message Visit poster's website bowelrupture's Favorites are Private
Skype Name
PostPosted: Sat Feb 19, 2011 6:40 am   Post subject: Tabs Reply with quote


I thought: lets give you at least one tab of a Cote d'Aver song i wrote a few years ago.


Cote d'Aver - Backstabbing Granny.

Gtr I (B E A D G B E) - 'Erwin'
Gtr II (B E A D G B E) - 'Miquel'

Riff A
Q=196
1/4 4/4
Gtrs I, II
PM-------------------| PM------------|
Q Q Q Q Q E E E +E Q Q Q Q Q Q Q Q Q Q 8x
|----||--------------|-----------------|-------------|---------------------------||
|----||--------------|-----------------|-------------|---------------------------||
|----||o-------------|-----------------|-------------|-------------------------o||
|----||--------------|-----------------|-------------|---------------------------||
|----||o-------------|-----------------|-------------|------------------9tr6---o||
|----||--3--7--6--5--|-2-3-2-(2)-2--2S=|=3--7--6--5--|-2--2--10tr7----------||
|----||--3--5--4--3--|-2-3-2-(2)-2--2S=|=3--5--4--3--|-2--2-----------------||


Riff B
Q=172
PM------| PM------|
E S S E E Q Q E S S E E Q Q
||------------------------|-----------------------|
||------------------------|-----------------------|
||o-----------------------|-----------------------|
||------------------------|-----------------------|
||o-----------------------|-----------------------|
||------------4tr1--4tr3--|-----------4tr1--4tr3--|
||--0-0-0-0-0-------------|-0-0-0-0-0-------------|


PM------| PM|
E S S E E Q Q E E Q Q Q 3x
|-----------------------|-----------------------||
|-----------------------|-----------------------||
|-----------------------|----------------------o||
|-----------------------|-----------------------||
|-----------------------|----------------------o||
|-----------4tr1--4tr3--|-4-3-4tr1--4tr3--6tr3--||
|-0-0-0-0-0-------------|-2-1-------------------||


Bridge
Q=160
PM--------------| PM--------------|
E E E E S S S +S E E E E E E S S S +S E E
||------------------------|-----------------------|
||------------------------|-----------------------|
||o-----------------------|-----------------------|
||------------------------|-----------------------|
||o-----------------------|-----------------------|
||--3-7-6-5-2-3-2-(2)-2-2S|=3-7-6-5-2-3-2-(2)-2-2-|
||--3-5-4-3-2-3-2-(2)-2-2S|=3-5-4-3-2-3-2-(2)-2-2-|


PM--------------| PM------|
E E E E S S S +S E E E E E E E E E E
|-----------------------|------------------||
|-----------------------|------------------||
|-----------------------|-----------------o||
|-----------------------|------------------||
|-----------------------|-----------------o||
|-3-7-6-5-2-3-2-(2)-2-2S|=3-7-6-5-2-2-1-2--||
|-3-5-4-3-2-3-2-(2)-2-2S|=3-5-4-3-2-2-1-2--||


"Devo" Riff
Q=184
PM----------------| PM|
Q Q Q Q E E Q Q Q Q E E Q E E Q E E Q Q 5x
||--------------|--------------|---------------|----------------||
||--------------|--------------|---------------|----------------||
||o-------------|--------------|---------------|---------------o||
||--------------|--------------|---------------|----------------||
||o-------------|--------------|---------------|-6------7--8---o||
||--1--0--1--0--|-1-1-0--1--0--|-0--1-1-0--0-0-|-4--x-x-5--6----||
||--1--0--1--0--|-1-1-0--1--0--|-0--1-1-0--0-0-|-4--x-x-5--6----||


Riff A
Q=196
4/4
PM-------------------| PM------------|
Q Q Q Q E E E +E Q Q Q Q Q Q Q Q Q Q
||--------------|-----------------|-------------|---------------------||
||--------------|-----------------|-------------|---------------------||
||o-------------|-----------------|-------------|--------------------o||
||--------------|-----------------|-------------|---------------------||
||o-------------|-----------------|-------------|--------------9tr6--o||
||--3--7--6--5--|-2-3-2-(2)-2--2S=|=3--7--6--5--|-2--2--10tr7---------||
||--3--5--4--3--|-2-3-2-(2)-2--2S=|=3--5--4--3--|-2--2----------------||


Riff A (faster)
Q=160
PM--------------| PM--------------|
E E E E S S S +S E E E E E E S S S +S E E
||------------------------|-----------------------|
||------------------------|-----------------------|
||o-----------------------|-----------------------|
||------------------------|-----------------------|
||o-----------------------|-----------------------|
||--3-7-6-5-2-3-2-(2)-2-2S|=3-7-6-5-2-3-2-(2)-2-2-|
||--3-5-4-3-2-3-2-(2)-2-2S|=3-5-4-3-2-3-2-(2)-2-2-|


PM--------------| PM------|
E E E E S S S +S E E E E E E E E E E Q H.
|-----------------------|------------------||-------*|
|-----------------------|------------------||-------*|
|-----------------------|-----------------o||-------*|
|-----------------------|------------------||-------*|
|-----------------------|-----------------o||-------*|
|-3-7-6-5-2-3-2-(2)-2-2S|=3-7-6-5-2-2-1-2--||-1-----*|
|-3-5-4-3-2-3-2-(2)-2-2S|=3-5-4-3-2-2-1-2--||-1-----*|




***************************************************************************************
* Generated using Power Tab Editor by Brad Larsen - http://powertab.guitarnetwork.org *
Afghanistan DOSphantom
Commander
Commander



Joined: Aug 27, 2007
Member#: 3904
Posts: 787


DOSphantom is offline View user's profile Send private message View DOSphantom's Favorites
PostPosted: Sun Feb 20, 2011 8:37 pm   Post subject: Reply with quote


Well I've got some random practice shit.

The first chord you pull off, pinch, hit the next one like a thud, then trill the last two.
Run up the next chord.
Yada-yada.

Code:
F#m       B-9     E5 Am7th
------------|-------|---|2
------------|-1------|--|2
---[4]------|--2-3--|2-|3
7-5---3-1-2|-----2-|0-|3

C#m F5  Cdim    C#dim  E13b       Abm9th
---|--|-------|-------|--7-8-7-4-|5-[7]
---|--|---4-7-|--5-8-|5---------|5-
---|5-|[5]----|6-----|----------|5-
6-3|3-|-------|
4--|3-|-------|
---|--|-------|

--------------------5
3-2-----5-6-4-5---5
4-3---2-6-5-5-6-5-5
4-3-2-2-6-3-4-5-6-
2-2-2-3-4-3------7-
-----0-3---4------7-

----------------0---
----------------1--0
---3---0--------0--1
---3-2-2---4-1-2--1
-2-2-2-3-4-4-3-2--0
-2-2-0-3-4---2-0---


Sloppy as fuck trying to post this. Probably not accurate either.
_________________
I have come here to chew bubblegum and kick ass... and I'm all out of bubblegum.
Finland Basher
Vice Admiral (Moderator)
Vice Admiral (Moderator)



Joined: Feb 19, 2010
Member#: 10128
Posts: 3826
Location: Ebil domain

Basher is offline View user's profile Send private message Send e-mail View Basher's Favorites
MSN Messenger
PostPosted: Fri Feb 25, 2011 5:38 pm   Post subject: Reply with quote


Nice, bowel and phantom, really nice
_________________
i am so ebil that i piss darkness
Netherlands DarkVampire
Lieutenant
Lieutenant



Joined: Apr 15, 2010
Member#: 10487
Posts: 166
Location: Friesland

DarkVampire is offline View user's profile Send private message View DarkVampire's Favorites
MSN Messenger
PostPosted: Tue May 17, 2011 9:04 am   Post subject: Reply with quote


its looking good
_________________
WHEN YOU THINK SMALL YOU NEVER GROW BIG
Slovakia slipknot1506
Cadet 1
Cadet 1



Joined: Jun 18, 2011
Member#: 12958
Posts: 4


slipknot1506 is offline View user's profile Send private message slipknot1506's Favorites are Private
Skype Name
PostPosted: Sun Jun 19, 2011 12:02 pm   Post subject: Reply with quote


Please tab someona Kataklysm - The Tragedy I Preach
Germany ARny RIP (subscribed member)
Captain
Captain

aw

Joined: Jul 22, 2010
Member#: 11083
Posts: 1704
Location: Baden-Württemberg

ARny is offline View user's profile Send private message View ARny's Favorites
Skype Name
PostPosted: Sun Jun 19, 2011 12:10 pm   Post subject: Reply with quote


Here you go:

Quote:
Kataklysm
The Tragedy I Preach
Proudly Tabbed by Dieter Oberholster(Cookie Monster)


Tuning: Tune Down 2 Steps

Intro:
--------------------------------------------------------------|
--------------------------------------------------------------|
--------------------------------------------------------------|
--------------------------------------------------------------|
--------------------------------------------------------------|
-0---17--15--17--0--15--14---0--15--14--15--0--17--14---------|


--------------------------------------------------------------|
--------------------------------------------------------------|
--------------------------------------------------------------|
--------------------------------------------------------------|
--------------------------------------------------------------|
-0---17--15--17--0--15--14---0--15--14--15--0--17p15-14-------|


--------------------------------------------------------------|
--------------------------------------------------------------|
--------------------------------------------------------------|
--------------------------------------------------------------|
--------------------------------------------------------------|
-0---17--15--17--0--15--14---0--15--14--15--0--17--14---------|


---------------------------------------------------------------|
---------------------------------------------------------------|
---------------------------------------------------------------|
---------------------------------------------------------------|
---------------------------------------------------------------|
-0---17--15--17--0--15--14---0--15--14--15--0--15-17-15-17-14--|
-----fast-------|


I'm not sure if it's correct, i just googled it Mr. Green
_________________
Singing 'bout shit and eating shit are both totally metal dude.
Display posts from previous:
Post new topic   Reply to topic    Death.FM Forum Index -> Musicians All times are GMT - 5 Hours
Page 1 of 1

 
Jump to:  
You cannot post new topics in this forum
You cannot reply to topics in this forum
You cannot edit your posts in this forum
You cannot delete your posts in this forum
You cannot vote in polls in this forum



Forums ©


Copyright © 2001-2019 24seven.FM, LLC All rights reserved.
Comments, images, and trademarks are property of their respective owners.
You can syndicate our news using the file backend.php or ultramode.txt. Robots may follow the Sitemap.